86band

 找回密码
 立即注册

QQ登录

只需一步,快速开始

扫描二维码登录本站

查看: 2541|回复: 1

指弹吉他基本练习Fingerpicking and arpeggio tips [复制链接]

发表于 2011-10-14 07:31:42 | 显示全部楼层 |阅读模式
Fingerpicking and arpeggio tips

转自http://www.theguitarsuite.com

Arpeggio rolls: Exercise 1

|--------------------------|--------------------------|
|--------------------------|--------------------------|
|-----0-----0-----0-----7--|------0-----0-----0-----0-|
|---7-----7-----7-----7----|--------------------------|
|-5-----5-----5-----5------|----8-----8-----8-----8---|
|--------------------------|--7-----7-----7-----7-----|


|------------------------------|------------------------3-|
|--------------------0---------|------------------0-----0-|
|-------------0-------------0--|------------0-----------0-|
|------0-----------------------|------0---------0---------|
|---10-----10-----10-----10----|----2-----2---2-------2---|
|-8------8------8------8-------|--3-----3-----------3-----|

Arpeggio rolls: Exercise 2

|----------------------------------------------------------------------|
|-----------------------------------------------------9------0-----7---|
|-----9-----7-----5-----4-----2-----4-----5-----7---9-----11-----8-----|
|---9-----8-----6-----4-----2-----4-----6-----8------------------------|
|-------------------------------------------------0-----0------0-------|
|-0-----0-----0-----0-----0-----0-----0-----0--------------------------|


|-------------------------0-|
|-----9-----9-----7-----0-0-|
|---9-----9-----8-----8---1-|
|-------------------------2-|
|-0-----0-----0-----0-----2-|
|-------------------------0-|

Arpeggio rolls: Exercise 3

|-----0-----0-----0-----0-----0-----0-----0-----0-----0-----0-----0---|
|---0-----0-----0-----0-----0-----0-----0-----0-----8-----7-----5-----|
|-9-----7-----5-----4-----2-----4-----5-----7-----0-----0-----0-------|
|---------------------------------------------------------------------|
|---------------------------------------------------------------------|
|---------------------------------------------------------------------|


|-----0-----0-----0------|
|---3-----1-----0--------|
|-0-----0-----4-----4----|
|------------------------|
|------------------------|
|------------------------|

altrolls2.mid

441 Bytes, 下载次数: 0

altrolls1.mid

573 Bytes, 下载次数: 1

altroll3.mid

585 Bytes, 下载次数: 0

 楼主| 发表于 2011-10-14 07:32:10 | 显示全部楼层
|----------------------------------------------------------------------------|
|-1-----1-----1-----1-----1-----1-----1-----1-----1-----1-----1-----1--------|
|---2-----2-----2-----2-----2-----2-----2-----2-----2-----2-----2-----2------|
|-----2-----2-----2-----2-----3-----3-----3-----3----------------------------|
|-----------------------------------------------------2-----2-----2-----2----|
|----------------------------------------------------------------------------|


|-------------------------------------------------------------------------0--|
|-1-----1-----1-----1-----1-----1-----1-----1-----1-----1-----1-----1-----1--|
|---2-----2-----2-----2-----2-----2-----2-----2-----2-----2-----2-----2---2--|
|-------------------------------------------------------------------------2--|
|-----3-----3-----3-----3-------------------------------------------------0--|
|-----------------------------1-----1-----1-----1-----3-----3-----3-----3----|

Reverse arpeggio rolls: exercise 2 (a - m - i - p = ring - middle - index - thumb)

|-0-------0-------0-------0-------0-------0-------0--------------------------|
|---1-------1-------1-------1-------1-------1-------1------1-------0---------|
|-----2-------2-------2-------2-------2-------2-------2------0-------0-------|
|-------3-------3-------3-------3------------------------------0-------0-----|
|---------------------------------------3-------3-------3--------------------|
|----------------------------------------------------------------3-------3---|


|--------------------------------------------|
|-0-------1-------1-------1-------3-----3----|
|---0-------0-------0-------0-------0--------|
|-----0-------0-------0-------0-------0------|
|--------------------------------------------|
|-------3-------3-------3-------3------------|

Arpeggio exercise 1: Reverse alternating rolls: p - m - i - a - p - a - m - i

|-----------0-----|-----------0-----|-----------0-----|-----------0--------|
|-------1-----1---|-------1-----1---|-------1-----1---|-------1-----1------|
|---0-----------0-|---0-----------0-|---2-----------2-|---2-----------2----|
|-----2-----------|-----2-----------|-----2-----------|-----2--------------|
|-3-------3-------|-3-------3-------|-0-------0-------|-0-------0----------|
|-----------------|-----------------|-----------------|--------------------|


|-----------0-----|-----------0-----|-----------0-----|-----------0-----|
|-------1-----1---|-------1-----1---|-------1-----1---|-------1-----1---|
|---0-----------0-|---0-----------0-|---2-----------2-|---2-----------2-|
|-----2-----------|-----2-----------|-----2-----------|-----2-----------|
|-3-------3-------|-3-------3-------|-0-------0-------|-0-------0-------|
|-----------------|-----------------|-----------------|-----------------|
          

Arpeggio exercise 2: Reverse alternating rolls: p - m - i

|--------------|--------------|---------||-------------|-------------|-----------|
|---1-----1----|---1-----1----|---1---1-||---1-----1---|---1-----1---|---1---1---|
|-----0-----0--|-----0-----0--|---------||-----0-----0-|-----0-----0-|-----------|
|-------2------|-------2------|-----2---||-------2-----|-------2-----|-----2-----|
|-3------------|-3------------|-3-------||-3-----------|-3-----------|-3---------|
|--------------|--------------|---------||-------------|-------------|-----------|


|-------------|-------------|---------|-------------|-------------|------------|
|---1-----1---|---1-----1---|---1---1-|---1-----1---|---1-----1---|---1---1----|
|-----2-----0-|-----2-----2-|---------|-----0-----0-|-----0-----0-|------------|
|-------2-----|-------2-----|-----2---|-------2-----|-------2-----|-----2------|
|-0-----------|-0-----------|-0-------|-3-----------|-3-----------|-3----------|
|-------------|-------------|---------|-------------|-------------|------------|
          
          

Arpeggio Exercise 3: Reverse alternating rolls

|---0---------0---|---------0-------|---------0-------|-----------3--------|
|-----3---------3-|---1-------1-----|---1-------1-----|---0---------0------|
|---------2-------|-----0-------0---|-----0-------0---|-----0---------0----|
|-0-----0---0-----|-------2---------|---------------2-|-------0------------|
|-----------------|-0-------------0-|-3-----3---------|---------2----------|
|-----------------|-----------------|-----------------|-3------------------|


|---0---------0---|---------0-------|---------0-------|-----------3--------|
|-----3---------3-|---1-------1-----|---1-------1-----|---0---------0------|
|---------2-------|-----0-------0---|-----0-------0---|-----0---------0----|
|-0-----0---0-----|-------2---------|---------------2-|-------0------------|
|-----------------|-0-------------0-|-3-----3---------|---------2----------|
|-----------------|-----------------|-----------------|-3------------------|  
          

Arpeggios: Pinch Picking
Fingerpicking Pinch picking: p - i,m p - m,a
Exercise 1: Pinch picking fingerpicking

|---0---0---0---0------|
|-----0-------0--------|
|-----2-------2--------|
|---2---2---2---2------|
|-0-------0-------0----|
          

Exercise 2: Pinch picking fingerpicking

|-0-------0-------0-------0---------|-3-------3-------3-------3-------|
|---0---0---0---0---0---0---0---0---|---0---0---0---0---0---0---0-----|
|-----0-------0-------0-------0-----|-----0-------0-------0-------0---|
|-----2-------2-------2-------2-----|-----0-------0-------0-------0---|
|---2---2---2---2---2---2---2---2---|---2---2---2---2---2---2---2-----|
|-0-------0-------0-------0-------2-|-3-------3-------3-------3-----3-|


|-0-------0-------0-------0-------|-0-------0-------0-------0----------|
|---1---1---1---1---1---1---1-----|---1---1---1---1---1---1---1--------|
|-----2-------2-------2-------2---|-----0-------0-------0--------------|
|---2---2---2---2---2---2---2-----|---2---2---2---2---2---2---2--------|
|-0-------0-------0-------0-----2-|-3-------3-------3-------3---2-0----|
|---------------------------------|------------------------------------|


|-0-------0-------0-------0-------0----|
|---0---0---0---0---0---0---0---0-0----|
|-----0-------0-------0-------0---1----|
|-----2-------2-------2-------2---2----|
|---2---2---2---2---2---2---2---2-2----|
|-0-------0-------0-------0-------0----|  
          

Exercise 1: Pinch picking fingerpicking

|---0-------0-------0-------0-----|---2-------2-------2-------2--------|
|---2---2---2---2---2---2---2---2-|---3---3---3---3---3---3---3---3----|
|-------1-------1-------1-------1-|-------0-------0-------0-------0----|
|-----2-------2-------2-------2---|-----0-------0-------0-------0------|
|-0-------0-------0-------0-------|------------------------------------|
|---------------------------------|-3-------3-------3-------3----------|

          

Exercise 4: Pinch picking fingerpicking

|-0-------0-----0-------0-----|-2-------2-----2-------2--------|
|---2-----2---2---2-----2---2-|---3-----3---3---3-----3---3----|
|-----1-------1-----1-------1-|-------------2-------------2----|
|---2-------2-----2-------2---|-----------0-------------0------|
|-0-----0-------0-----0-------|-----0-------------0------------|
|-----------------------------|-3-----3-------3-----3----------|

          
您需要登录后才可以回帖 登录 | 立即注册

本版积分规则

QQ|Archiver|手机版|小黑屋|86band艺术网 ( 辽ICP备08104402号 )

GMT+8, 2018-5-25 01:26

Powered by Discuz! X3.4

© 2001-2017 Comsenz Inc.

快速回复 返回顶部 返回列表